InícioPortalFAQMembrosGruposRegistrar-seConectar-se

Compartilhe | 
 

 Tutorial Tapping

Ver o tópico anterior Ver o tópico seguinte Ir em baixo 
AutorMensagem
Memory Man
 
 
avatar

Masculino Número de Mensagens : 24
Idade : 25
Localização : São Paulo - SP
Emprego : Musico
Data de inscrição : 23/06/2008

MensagemAssunto: Tutorial Tapping   Ter Nov 11, 2008 8:10 pm

Nesse tutorial vou mostrar o tapping do inglês digitar, e é exatamente isso, digitar nas cordas da guitarra com a mão direita, não é como dedilhar caso quem não conheça a técnica pense, não é somente nas cordas, mas enquanto a mão esquerda toca determinada seqüência, a mão direita toca determinda nota("casa"), no braço da guitarra, isso de forma isolada ou agrupada. Abaixo tem a sigla de abreviatura do tapping e uns exemplos:


t t
|------------------------------|
|------------------------------|
|------------------------------|
|------------------------------|
|-2-3-5-7-5-3-2-3-5-7----|
|------------------------------|

Esse é um exemplo mais simples to tapping, nesse caso ele é feito isolado, ou seja não há acrescimo de outra nota com digitação(tapping), a nota(número) que estiver com o "t" em cima ou ao lado, isso depende de quem fizer a tablatura, é por que deve ser tocado com um dos dedos da mão direita, geralmente em casos simples como esse se usa o indicador ou médio, mas isso vai depender do nível técnico do guitarrista pois com o tempo e prática há quem consiga segurar a palheta entre o polegar e indicador e ter os quatro dedos livres para tocar em grupos de notas digitadas(Kiko Loureiro costuma fazer assim), ou até mesmo digitar com a própria palheta(assim faz Joe Satriani).

Um exemplo de tapping envolvendo corda solta está no início do solo da música Nova Era do Angra, saca só:

|---------------------------------------------------------------|
|---------------------------------------------------------------|
|---------------------------------------------------------------|
|----12t0-10-12t10-0-12t0-10-12t10-0-10-12t10-0-|
|---------------------------------------------------------------|
|---------------------------------------------------------------|

Esse solo tem outras partes com tapping mas é muito longo para transcrever toda aqui.

Uma boa maneira de sacar solos e riffs com bastante tapping é escutando Van Halen, que talvez seja o pai deste, ele simplismente consegue até swingar uma percussão no braço da guitarra usando tapping, o marco do tapping se assim pode ser chamado é o solo da música Eruption que mesmo sendo antigo, ainda hoje impressiona e influencia quem ouve.

Tá aí então alguns exercícios para quem quer se aprimorar nessa técnica:

1

|-----------------------------------------------------------------------|
|-----------------------------------------------------------------------|
|-----------------------------------------------------------------------|
|-----------------------------------------------------------------------|
|-----------------------------------------------------------------------|
|-7t0-3-7t0-3-7t0-8t0-5-8t0-5-8t0-5-5t0-2-5t0-2-5t0-2-0-|

Repete esse exercício para as outras cordas

2

|-------------------------------------------------------5-6-7-8-12t-|
|--------------------------------------------5-6-7-8-12t------------|
|---------------------------------5-6-7-8-12t-----------------------|
|----------------------5-6-7-8-12t----------------------------------|
|------------5-6-7-8-12t--------------------------------------------|
|-5-6-7-8-12t-------------------------------------------------------|

Esse depois é só fazer o inverso, ou seja ascendendo(subindo), lembrar de que no começo não vai sair 100% mas o segredo é só treino, devagar, não se preocupe em fazer rápido por que se tentar ir rápido sem ter precisão vai embaralhar tudo e não vai ficar legal, primeiro treine a precisão e vá aumentando a velocidade aos poucos até que você vai fazer rápido bem naturalmente e bem preciso. Bom espero isso ajude no seu desenvolvimento e valeu, abraço pessoal! flwflw

Retirado do CifraClub

_________________
"Sabio é aquele que usufruio de todas as maneiras de um guitarra..."
Voltar ao Topo Ir em baixo
Ver perfil do usuário http://oficinamusical.forumsmusic.com
 
Tutorial Tapping
Ver o tópico anterior Ver o tópico seguinte Voltar ao Topo 
Página 1 de 1
 Tópicos similares
-
» Para Tapping...
» Bohemian Rhapsody (arranjo para baixo tapping solo)
» Meu primeiro vídeo solo. [tapping e distorções]
» qual metodo de tapping ?
» Rebirth (Angra) introdução em tapping

Permissão deste fórum:Você não pode responder aos tópicos neste fórum
.::Império do Rock | - Oficina Musical :: Guitarra-
Ir para: